  0
SECTION
  2
HEADER
  9
$ACADVER
  1
AC1011
  9
$LIMMIN
 10
            -2.3
 20
           -1.25
  9
$LIMMAX
 10
             1.3
 20
            1.75
  9
$VIEWCTR
 10
            -0.5
 20
            0.25
  0
ENDSEC
  0
SECTION
  2
ENTITIES
  0
LINE
  5
48
  8
0
 10
              -1
 20
            -0.4
 30
               0
 11
            -0.5
 21
            -0.4
 31
               0
  0
LINE
  5
49
  8
0
 10
            -0.5
 20
            -0.4
 30
               0
 11
            -0.5
 21
             0.6
 31
               0
  0
LINE
  5
50
  8
0
 10
            -0.5
 20
             0.6
 30
               0
 11
              -1
 21
             0.6
 31
               0
  0
LINE
  5
51
  8
0
 10
              -1
 20
             0.6
 30
               0
 11
              -1
 21
            -0.4
 31
               0
  0
LINE
  5
52
  8
0
 10
            -0.5
 20
            -0.4
 30
               0
 11
               0
 21
            -0.4
 31
               0
  0
LINE
  5
53
  8
0
 10
               0
 20
            -0.4
 30
               0
 11
    1.11022e-016
 21
             0.6
 31
               0
  0
LINE
  5
54
  8
0
 10
    1.11022e-016
 20
             0.6
 30
               0
 11
            -0.5
 21
             0.6
 31
               0
  0
LINE
  5
55
  8
0
 10
            -0.5
 20
             0.6
 30
               0
 11
            -0.5
 21
            -0.4
 31
               0
  0
LINE
  5
56
  8
0
 10
              -2
 20
              -1
 30
               0
 11
               1
 21
              -1
 31
               0
  0
LINE
  5
57
  8
0
 10
               1
 20
              -1
 30
               0
 11
               1
 21
             1.5
 31
               0
  0
LINE
  5
58
  8
0
 10
               1
 20
             1.5
 30
               0
 11
              -2
 21
             1.5
 31
               0
  0
LINE
  5
59
  8
0
 10
              -2
 20
             1.5
 30
               0
 11
              -2
 21
              -1
 31
               0
  0
LINE
  5
60
  8
0
 10
              -1
 20
               0
 30
               0
 11
               0
 21
               0
 31
               0
  0
ENDSEC
  0
EOF
